ISO-10303-21;
HEADER;
FILE_DESCRIPTION((''),'2;1');
FILE_NAME('HORN','2020-09-12T',('Administrator'),(''),
'PRO/ENGINEER BY PARAMETRIC TECHNOLOGY CORPORATION, 2014320',
'PRO/ENGINEER BY PARAMETRIC TECHNOLOGY CORPORATION, 2014320','');
FILE_SCHEMA(('CONFIG_CONTROL_DESIGN'));
ENDSEC;
DATA;
#1=CARTESIAN_POINT('',(0.E0,0.E0,0.E0));
#2=DIRECTION('',(0.E0,1.E0,0.E0));
#3=DIRECTION('',(1.E0,0.E0,0.E0));
#4=AXIS2_PLACEMENT_3D('',#1,#2,#3);
#6=CARTESIAN_POINT('',(0.E0,0.E0,0.E0));
#7=DIRECTION('',(0.E0,1.E0,0.E0));
#8=DIRECTION('',(-1.E0,0.E0,0.E0));
#9=AXIS2_PLACEMENT_3D('',#6,#7,#8);
#11=CARTESIAN_POINT('',(0.E0,0.E0,0.E0));
#12=DIRECTION('',(0.E0,-1.E0,0.E0));
#13=DIRECTION('',(1.E0,0.E0,0.E0));
#14=AXIS2_PLACEMENT_3D('',#11,#12,#13);
#16=CARTESIAN_POINT('',(0.E0,0.E0,0.E0));
#17=DIRECTION('',(0.E0,-1.E0,0.E0));
#18=DIRECTION('',(-1.E0,0.E0,0.E0));
#19=AXIS2_PLACEMENT_3D('',#16,#17,#18);
#21=DIRECTION('',(0.E0,-1.E0,0.E0));
#22=VECTOR('',#21,1.5E0);
#23=CARTESIAN_POINT('',(1.E1,0.E0,0.E0));
#24=LINE('',#23,#22);
#25=DIRECTION('',(0.E0,-1.E0,0.E0));
#26=VECTOR('',#25,1.5E0);
#27=CARTESIAN_POINT('',(-1.E1,0.E0,0.E0));
#28=LINE('',#27,#26);
#29=CARTESIAN_POINT('',(0.E0,-1.5E0,0.E0));
#30=DIRECTION('',(0.E0,1.E0,0.E0));
#31=DIRECTION('',(1.E0,0.E0,0.E0));
#32=AXIS2_PLACEMENT_3D('',#29,#30,#31);
#34=CARTESIAN_POINT('',(0.E0,-1.5E0,0.E0));
#35=DIRECTION('',(0.E0,1.E0,0.E0));
#36=DIRECTION('',(-1.E0,0.E0,0.E0));
#37=AXIS2_PLACEMENT_3D('',#34,#35,#36);
#39=CARTESIAN_POINT('',(0.E0,-1.5E0,0.E0));
#40=DIRECTION('',(0.E0,-1.E0,0.E0));
#41=DIRECTION('',(1.E0,0.E0,0.E0));
#42=AXIS2_PLACEMENT_3D('',#39,#40,#41);
#44=CARTESIAN_POINT('',(0.E0,-1.5E0,0.E0));
#45=DIRECTION('',(0.E0,-1.E0,0.E0));
#46=DIRECTION('',(-1.E0,0.E0,0.E0));
#47=AXIS2_PLACEMENT_3D('',#44,#45,#46);
#49=CARTESIAN_POINT('',(7.5E0,-2.5E0,-3.763933609235E-13));
#50=DIRECTION('',(5.018728488349E-14,0.E0,1.E0));
#51=DIRECTION('',(-9.237055564881E-14,1.E0,0.E0));
#52=AXIS2_PLACEMENT_3D('',#49,#50,#51);
#54=CARTESIAN_POINT('',(-7.5E0,-2.5E0,3.790023850314E-13));
#55=DIRECTION('',(-5.053249485520E-14,0.E0,-1.E0));
#56=DIRECTION('',(9.059419880941E-14,1.E0,0.E0));
#57=AXIS2_PLACEMENT_3D('',#54,#55,#56);
#59=CARTESIAN_POINT('',(0.E0,-2.5E0,0.E0));
#60=DIRECTION('',(0.E0,-1.E0,0.E0));
#61=DIRECTION('',(-1.E0,0.E0,0.E0));
#62=AXIS2_PLACEMENT_3D('',#59,#60,#61);
#64=DIRECTION('',(0.E0,-1.E0,6.805284154452E-13));
#65=VECTOR('',#64,8.797319087213E0);
#66=CARTESIAN_POINT('',(-6.5E0,-2.5E0,-1.651192800723E-12));
#67=LINE('',#66,#65);
#68=CARTESIAN_POINT('',(0.E0,-1.168668589846E1,0.E0));
#69=DIRECTION('',(0.E0,-1.E0,0.E0));
#70=DIRECTION('',(0.E0,0.E0,-1.E0));
#71=AXIS2_PLACEMENT_3D('',#68,#69,#70);
#73=CARTESIAN_POINT('',(0.E0,-1.129731908721E1,0.E0));
#74=DIRECTION('',(0.E0,1.E0,0.E0));
#75=DIRECTION('',(1.E0,0.E0,0.E0));
#76=AXIS2_PLACEMENT_3D('',#73,#74,#75);
#78=CARTESIAN_POINT('',(-7.5E0,-1.129731908721E1,1.394761042772E-10));
#79=DIRECTION('',(-1.859681506011E-11,0.E0,-1.E0));
#80=DIRECTION('',(1.E0,0.E0,-1.859681506011E-11));
#81=AXIS2_PLACEMENT_3D('',#78,#79,#80);
#83=DIRECTION('',(-6.088657826509E-13,-9.210827792882E-1,-3.893668112446E-1));
#84=VECTOR('',#83,1.173978533167E1);
#85=CARTESIAN_POINT('',(7.146588102940E-12,-1.168668589846E1,
-6.578917220712E0));
#86=LINE('',#85,#84);
#87=CARTESIAN_POINT('',(0.E0,-1.168668589846E1,0.E0));
#88=DIRECTION('',(0.E0,-1.E0,0.E0));
#89=DIRECTION('',(0.E0,0.E0,1.E0));
#90=AXIS2_PLACEMENT_3D('',#87,#88,#89);
#92=DIRECTION('',(9.132719097805E-13,-9.210827792882E-1,3.893668112446E-1));
#93=VECTOR('',#92,1.173978533167E1);
#94=CARTESIAN_POINT('',(-1.072025068909E-11,-1.168668589846E1,
6.578917220712E0));
#95=LINE('',#94,#93);
#96=CARTESIAN_POINT('',(0.E0,-1.168668589846E1,0.E0));
#97=DIRECTION('',(0.E0,-1.E0,0.E0));
#98=DIRECTION('',(-1.E0,0.E0,0.E0));
#99=AXIS2_PLACEMENT_3D('',#96,#97,#98);
#101=CARTESIAN_POINT('',(7.831275905534E-11,-1.129731908721E1,7.5E0));
#102=DIRECTION('',(-1.E0,0.E0,1.044170132303E-11));
#103=DIRECTION('',(-1.044170132303E-11,0.E0,-1.E0));
#104=AXIS2_PLACEMENT_3D('',#101,#102,#103);
#106=CARTESIAN_POINT('',(0.E0,-1.129731908721E1,0.E0));
#107=DIRECTION('',(0.E0,-1.E0,0.E0));
#108=DIRECTION('',(1.E0,0.E0,0.E0));
#109=AXIS2_PLACEMENT_3D('',#106,#107,#108);
#111=CARTESIAN_POINT('',(0.E0,-1.129731908721E1,0.E0));
#112=DIRECTION('',(0.E0,-1.E0,0.E0));
#113=DIRECTION('',(0.E0,0.E0,1.E0));
#114=AXIS2_PLACEMENT_3D('',#111,#112,#113);
#116=CARTESIAN_POINT('',(0.E0,-2.5E0,0.E0));
#117=DIRECTION('',(0.E0,-1.E0,0.E0));
#118=DIRECTION('',(1.E0,0.E0,0.E0));
#119=AXIS2_PLACEMENT_3D('',#116,#117,#118);
#121=DIRECTION('',(0.E0,-1.E0,-5.164300366473E-13));
#122=VECTOR('',#121,8.797319087213E0);
#123=CARTESIAN_POINT('',(6.5E0,-2.5E0,1.653342123109E-12));
#124=LINE('',#123,#122);
#125=CARTESIAN_POINT('',(0.E0,-2.25E1,0.E0));
#126=DIRECTION('',(0.E0,-1.E0,0.E0));
#127=DIRECTION('',(0.E0,0.E0,-1.E0));
#128=AXIS2_PLACEMENT_3D('',#125,#126,#127);
#130=CARTESIAN_POINT('',(0.E0,-2.25E1,0.E0));
#131=DIRECTION('',(0.E0,-1.E0,0.E0));
#132=DIRECTION('',(0.E0,0.E0,1.E0));
#133=AXIS2_PLACEMENT_3D('',#130,#131,#132);
#135=CARTESIAN_POINT('',(0.E0,-2.25E1,0.E0));
#136=DIRECTION('',(0.E0,1.E0,0.E0));
#137=DIRECTION('',(0.E0,0.E0,-1.E0));
#138=AXIS2_PLACEMENT_3D('',#135,#136,#137);
#140=CARTESIAN_POINT('',(0.E0,-2.25E1,0.E0));
#141=DIRECTION('',(0.E0,1.E0,0.E0));
#142=DIRECTION('',(0.E0,0.E0,1.E0));
#143=AXIS2_PLACEMENT_3D('',#140,#141,#142);
#145=DIRECTION('',(0.E0,-9.210827792882E-1,-3.893668112446E-1));
#146=VECTOR('',#145,1.194246624446E1);
#147=CARTESIAN_POINT('',(0.E0,-1.15E1,-5.E0));
#148=LINE('',#147,#146);
#149=CARTESIAN_POINT('',(0.E0,-1.15E1,0.E0));
#150=DIRECTION('',(0.E0,1.E0,0.E0));
#151=DIRECTION('',(0.E0,0.E0,-1.E0));
#152=AXIS2_PLACEMENT_3D('',#149,#150,#151);
#154=CARTESIAN_POINT('',(0.E0,-1.5E0,0.E0));
#155=DIRECTION('',(0.E0,-1.E0,0.E0));
#156=DIRECTION('',(1.E0,0.E0,0.E0));
#157=AXIS2_PLACEMENT_3D('',#154,#155,#156);
#159=DIRECTION('',(0.E0,-1.E0,0.E0));
#160=VECTOR('',#159,1.5E0);
#161=CARTESIAN_POINT('',(5.E0,0.E0,0.E0));
#162=LINE('',#161,#160);
#163=DIRECTION('',(0.E0,-1.E0,0.E0));
#164=VECTOR('',#163,1.E1);
#165=CARTESIAN_POINT('',(0.E0,-1.5E0,-5.E0));
#166=LINE('',#165,#164);
#167=CARTESIAN_POINT('',(0.E0,-1.15E1,0.E0));
#168=DIRECTION('',(0.E0,1.E0,0.E0));
#169=DIRECTION('',(0.E0,0.E0,1.E0));
#170=AXIS2_PLACEMENT_3D('',#167,#168,#169);
#172=CARTESIAN_POINT('',(0.E0,-1.5E0,0.E0));
#173=DIRECTION('',(0.E0,-1.E0,0.E0));
#174=DIRECTION('',(-1.E0,0.E0,0.E0));
#175=AXIS2_PLACEMENT_3D('',#172,#173,#174);
#177=DIRECTION('',(0.E0,-1.E0,0.E0));
#178=VECTOR('',#177,1.5E0);
#179=CARTESIAN_POINT('',(-5.E0,0.E0,0.E0));
#180=LINE('',#179,#178);
#181=DIRECTION('',(0.E0,-1.E0,0.E0));
#182=VECTOR('',#181,1.E1);
#183=CARTESIAN_POINT('',(0.E0,-1.5E0,5.E0));
#184=LINE('',#183,#182);
#185=DIRECTION('',(0.E0,-9.210827792882E-1,3.893668112446E-1));
#186=VECTOR('',#185,1.194246624446E1);
#187=CARTESIAN_POINT('',(0.E0,-1.15E1,5.E0));
#188=LINE('',#187,#186);
#189=CARTESIAN_POINT('',(1.E1,0.E0,0.E0));
#190=CARTESIAN_POINT('',(-1.E1,0.E0,0.E0));
#191=VERTEX_POINT('',#189);
#192=VERTEX_POINT('',#190);
#193=CARTESIAN_POINT('',(5.E0,0.E0,0.E0));
#194=CARTESIAN_POINT('',(-5.E0,0.E0,0.E0));
#195=VERTEX_POINT('',#193);
#196=VERTEX_POINT('',#194);
#197=CARTESIAN_POINT('',(1.E1,-1.5E0,0.E0));
#198=CARTESIAN_POINT('',(-1.E1,-1.5E0,0.E0));
#199=VERTEX_POINT('',#197);
#200=VERTEX_POINT('',#198);
#201=CARTESIAN_POINT('',(-5.E0,-1.5E0,0.E0));
#202=CARTESIAN_POINT('',(0.E0,-1.5E0,-5.E0));
#203=VERTEX_POINT('',#201);
#204=VERTEX_POINT('',#202);
#205=CARTESIAN_POINT('',(5.E0,-1.5E0,0.E0));
#206=CARTESIAN_POINT('',(0.E0,-1.5E0,5.E0));
#207=VERTEX_POINT('',#205);
#208=VERTEX_POINT('',#206);
#209=CARTESIAN_POINT('',(0.E0,-2.25E1,-1.115E1));
#210=CARTESIAN_POINT('',(0.E0,-2.25E1,1.115E1));
#211=VERTEX_POINT('',#209);
#212=VERTEX_POINT('',#210);
#213=CARTESIAN_POINT('',(0.E0,-2.25E1,-9.65E0));
#214=CARTESIAN_POINT('',(0.E0,-2.25E1,9.65E0));
#215=VERTEX_POINT('',#213);
#216=VERTEX_POINT('',#214);
#217=CARTESIAN_POINT('',(0.E0,-1.15E1,-5.E0));
#218=CARTESIAN_POINT('',(0.E0,-1.15E1,5.E0));
#219=VERTEX_POINT('',#217);
#220=VERTEX_POINT('',#218);
#221=CARTESIAN_POINT('',(7.5E0,-1.5E0,0.E0));
#222=CARTESIAN_POINT('',(-7.5E0,-1.5E0,0.E0));
#223=VERTEX_POINT('',#221);
#224=VERTEX_POINT('',#222);
#225=CARTESIAN_POINT('',(6.5E0,-2.5E0,0.E0));
#226=CARTESIAN_POINT('',(-6.5E0,-2.5E0,0.E0));
#227=VERTEX_POINT('',#225);
#228=VERTEX_POINT('',#226);
#229=CARTESIAN_POINT('',(6.5E0,-1.129731908721E1,0.E0));
#230=CARTESIAN_POINT('',(0.E0,-1.129731908721E1,6.5E0));
#231=VERTEX_POINT('',#229);
#232=VERTEX_POINT('',#230);
#233=CARTESIAN_POINT('',(-6.5E0,-1.129731908721E1,0.E0));
#234=VERTEX_POINT('',#233);
#235=CARTESIAN_POINT('',(0.E0,-1.168668589846E1,6.578917220712E0));
#236=CARTESIAN_POINT('',(-6.578917220712E0,-1.168668589846E1,0.E0));
#237=VERTEX_POINT('',#235);
#238=VERTEX_POINT('',#236);
#239=CARTESIAN_POINT('',(0.E0,-1.168668589846E1,-6.578917220712E0));
#240=VERTEX_POINT('',#239);
#241=CARTESIAN_POINT('',(0.E0,0.E0,0.E0));
#242=DIRECTION('',(0.E0,1.E0,0.E0));
#243=DIRECTION('',(1.E0,0.E0,0.E0));
#244=AXIS2_PLACEMENT_3D('',#241,#242,#243);
#245=PLANE('',#244);
#247=ORIENTED_EDGE('',*,*,#246,.F.);
#249=ORIENTED_EDGE('',*,*,#248,.F.);
#250=EDGE_LOOP('',(#247,#249));
#251=FACE_OUTER_BOUND('',#250,.F.);
#253=ORIENTED_EDGE('',*,*,#252,.F.);
#255=ORIENTED_EDGE('',*,*,#254,.F.);
#256=EDGE_LOOP('',(#253,#255));
#257=FACE_BOUND('',#256,.F.);
#259=CARTESIAN_POINT('',(0.E0,0.E0,0.E0));
#260=DIRECTION('',(0.E0,1.E0,0.E0));
#261=DIRECTION('',(1.E0,0.E0,0.E0));
#262=AXIS2_PLACEMENT_3D('',#259,#260,#261);
#263=CYLINDRICAL_SURFACE('',#262,1.E1);
#264=ORIENTED_EDGE('',*,*,#246,.T.);
#266=ORIENTED_EDGE('',*,*,#265,.T.);
#268=ORIENTED_EDGE('',*,*,#267,.F.);
#270=ORIENTED_EDGE('',*,*,#269,.F.);
#271=EDGE_LOOP('',(#264,#266,#268,#270));
#272=FACE_OUTER_BOUND('',#271,.F.);
#274=CARTESIAN_POINT('',(0.E0,0.E0,0.E0));
#275=DIRECTION('',(0.E0,1.E0,0.E0));
#276=DIRECTION('',(1.E0,0.E0,0.E0));
#277=AXIS2_PLACEMENT_3D('',#274,#275,#276);
#278=CYLINDRICAL_SURFACE('',#277,1.E1);
#279=ORIENTED_EDGE('',*,*,#248,.T.);
#280=ORIENTED_EDGE('',*,*,#269,.T.);
#282=ORIENTED_EDGE('',*,*,#281,.F.);
#283=ORIENTED_EDGE('',*,*,#265,.F.);
#284=EDGE_LOOP('',(#279,#280,#282,#283));
#285=FACE_OUTER_BOUND('',#284,.F.);
#287=CARTESIAN_POINT('',(0.E0,-1.5E0,0.E0));
#288=DIRECTION('',(0.E0,1.E0,0.E0));
#289=DIRECTION('',(1.E0,0.E0,0.E0));
#290=AXIS2_PLACEMENT_3D('',#287,#288,#289);
#291=PLANE('',#290);
#292=ORIENTED_EDGE('',*,*,#267,.T.);
#293=ORIENTED_EDGE('',*,*,#281,.T.);
#294=EDGE_LOOP('',(#292,#293));
#295=FACE_OUTER_BOUND('',#294,.F.);
#297=ORIENTED_EDGE('',*,*,#296,.T.);
#299=ORIENTED_EDGE('',*,*,#298,.T.);
#300=EDGE_LOOP('',(#297,#299));
#301=FACE_BOUND('',#300,.F.);
#303=CARTESIAN_POINT('',(0.E0,-2.5E0,0.E0));
#304=DIRECTION('',(0.E0,-1.E0,0.E0));
#305=DIRECTION('',(9.999580077698E-1,0.E0,-9.164207391660E-3));
#306=AXIS2_PLACEMENT_3D('',#303,#304,#305);
#307=TOROIDAL_SURFACE('',#306,7.5E0,1.E0);
#308=ORIENTED_EDGE('',*,*,#296,.F.);
#310=ORIENTED_EDGE('',*,*,#309,.T.);
#312=ORIENTED_EDGE('',*,*,#311,.T.);
#314=ORIENTED_EDGE('',*,*,#313,.F.);
#315=EDGE_LOOP('',(#308,#310,#312,#314));
#316=FACE_OUTER_BOUND('',#315,.F.);
#318=CARTESIAN_POINT('',(0.E0,-2.5E0,0.E0));
#319=DIRECTION('',(0.E0,-1.E0,0.E0));
#320=DIRECTION('',(-9.999580077698E-1,0.E0,9.164207391661E-3));
#321=AXIS2_PLACEMENT_3D('',#318,#319,#320);
#322=TOROIDAL_SURFACE('',#321,7.5E0,1.E0);
#323=ORIENTED_EDGE('',*,*,#298,.F.);
#324=ORIENTED_EDGE('',*,*,#313,.T.);
#326=ORIENTED_EDGE('',*,*,#325,.T.);
#327=ORIENTED_EDGE('',*,*,#309,.F.);
#328=EDGE_LOOP('',(#323,#324,#326,#327));
#329=FACE_OUTER_BOUND('',#328,.F.);
#331=CARTESIAN_POINT('',(0.E0,-1.5E0,0.E0));
#332=DIRECTION('',(0.E0,-1.E0,0.E0));
#333=DIRECTION('',(0.E0,0.E0,-1.E0));
#334=AXIS2_PLACEMENT_3D('',#331,#332,#333);
#335=CYLINDRICAL_SURFACE('',#334,6.5E0);
#337=ORIENTED_EDGE('',*,*,#336,.F.);
#339=ORIENTED_EDGE('',*,*,#338,.F.);
#340=ORIENTED_EDGE('',*,*,#325,.F.);
#342=ORIENTED_EDGE('',*,*,#341,.T.);
#343=EDGE_LOOP('',(#337,#339,#340,#342));
#344=FACE_OUTER_BOUND('',#343,.F.);
#346=CARTESIAN_POINT('',(0.E0,-1.129731908721E1,0.E0));
#347=DIRECTION('',(0.E0,-1.E0,0.E0));
#348=DIRECTION('',(-6.749884363985E-3,0.E0,-9.999772192711E-1));
#349=AXIS2_PLACEMENT_3D('',#346,#347,#348);
#350=TOROIDAL_SURFACE('',#349,7.5E0,1.E0);
#352=ORIENTED_EDGE('',*,*,#351,.T.);
#354=ORIENTED_EDGE('',*,*,#353,.F.);
#356=ORIENTED_EDGE('',*,*,#355,.F.);
#357=ORIENTED_EDGE('',*,*,#336,.T.);
#359=ORIENTED_EDGE('',*,*,#358,.T.);
#361=ORIENTED_EDGE('',*,*,#360,.T.);
#362=EDGE_LOOP('',(#352,#354,#356,#357,#359,#361));
#363=FACE_OUTER_BOUND('',#362,.F.);
#365=CARTESIAN_POINT('',(0.E0,-1.709334294923E1,0.E0));
#366=DIRECTION('',(0.E0,-1.E0,0.E0));
#367=DIRECTION('',(0.E0,0.E0,-1.E0));
#368=AXIS2_PLACEMENT_3D('',#365,#366,#367);
#369=CONICAL_SURFACE('',#368,8.864458610356E0,2.291510628726E1);
#370=ORIENTED_EDGE('',*,*,#351,.F.);
#372=ORIENTED_EDGE('',*,*,#371,.T.);
#374=ORIENTED_EDGE('',*,*,#373,.T.);
#376=ORIENTED_EDGE('',*,*,#375,.F.);
#377=EDGE_LOOP('',(#370,#372,#374,#376));
#378=FACE_OUTER_BOUND('',#377,.F.);
#380=CARTESIAN_POINT('',(0.E0,-1.709334294923E1,0.E0));
#381=DIRECTION('',(0.E0,-1.E0,0.E0));
#382=DIRECTION('',(0.E0,0.E0,1.E0));
#383=AXIS2_PLACEMENT_3D('',#380,#381,#382);
#384=CONICAL_SURFACE('',#383,8.864458610356E0,2.291510628726E1);
#386=ORIENTED_EDGE('',*,*,#385,.F.);
#387=ORIENTED_EDGE('',*,*,#375,.T.);
#389=ORIENTED_EDGE('',*,*,#388,.T.);
#390=ORIENTED_EDGE('',*,*,#371,.F.);
#391=ORIENTED_EDGE('',*,*,#360,.F.);
#392=EDGE_LOOP('',(#386,#387,#389,#390,#391));
#393=FACE_OUTER_BOUND('',#392,.F.);
#395=CARTESIAN_POINT('',(0.E0,-1.129731908721E1,0.E0));
#396=DIRECTION('',(0.E0,-1.E0,0.E0));
#397=DIRECTION('',(6.749884363986E-3,0.E0,9.999772192711E-1));
#398=AXIS2_PLACEMENT_3D('',#395,#396,#397);
#399=TOROIDAL_SURFACE('',#398,7.5E0,1.E0);
#401=ORIENTED_EDGE('',*,*,#400,.F.);
#402=ORIENTED_EDGE('',*,*,#353,.T.);
#403=ORIENTED_EDGE('',*,*,#385,.T.);
#404=ORIENTED_EDGE('',*,*,#358,.F.);
#405=EDGE_LOOP('',(#401,#402,#403,#404));
#406=FACE_OUTER_BOUND('',#405,.F.);
#408=CARTESIAN_POINT('',(0.E0,-1.5E0,0.E0));
#409=DIRECTION('',(0.E0,-1.E0,0.E0));
#410=DIRECTION('',(0.E0,0.E0,-1.E0));
#411=AXIS2_PLACEMENT_3D('',#408,#409,#410);
#412=CYLINDRICAL_SURFACE('',#411,6.5E0);
#413=ORIENTED_EDGE('',*,*,#355,.T.);
#414=ORIENTED_EDGE('',*,*,#400,.T.);
#415=ORIENTED_EDGE('',*,*,#341,.F.);
#416=ORIENTED_EDGE('',*,*,#311,.F.);
#417=ORIENTED_EDGE('',*,*,#338,.T.);
#418=EDGE_LOOP('',(#413,#414,#415,#416,#417));
#419=FACE_OUTER_BOUND('',#418,.F.);
#421=CARTESIAN_POINT('',(0.E0,-2.25E1,0.E0));
#422=DIRECTION('',(0.E0,-1.E0,0.E0));
#423=DIRECTION('',(0.E0,0.E0,-1.E0));
#424=AXIS2_PLACEMENT_3D('',#421,#422,#423);
#425=PLANE('',#424);
#426=ORIENTED_EDGE('',*,*,#373,.F.);
#427=ORIENTED_EDGE('',*,*,#388,.F.);
#428=EDGE_LOOP('',(#426,#427));
#429=FACE_OUTER_BOUND('',#428,.F.);
#431=ORIENTED_EDGE('',*,*,#430,.F.);
#433=ORIENTED_EDGE('',*,*,#432,.F.);
#434=EDGE_LOOP('',(#431,#433));
#435=FACE_BOUND('',#434,.F.);
#437=CARTESIAN_POINT('',(0.E0,-1.7E1,0.E0));
#438=DIRECTION('',(0.E0,-1.E0,0.E0));
#439=DIRECTION('',(0.E0,0.E0,1.E0));
#440=AXIS2_PLACEMENT_3D('',#437,#438,#439);
#441=CONICAL_SURFACE('',#440,7.325E0,2.291510628726E1);
#443=ORIENTED_EDGE('',*,*,#442,.F.);
#445=ORIENTED_EDGE('',*,*,#444,.T.);
#446=ORIENTED_EDGE('',*,*,#430,.T.);
#448=ORIENTED_EDGE('',*,*,#447,.F.);
#449=EDGE_LOOP('',(#443,#445,#446,#448));
#450=FACE_OUTER_BOUND('',#449,.F.);
#452=CARTESIAN_POINT('',(0.E0,0.E0,0.E0));
#453=DIRECTION('',(0.E0,1.E0,0.E0));
#454=DIRECTION('',(1.E0,0.E0,0.E0));
#455=AXIS2_PLACEMENT_3D('',#452,#453,#454);
#456=CYLINDRICAL_SURFACE('',#455,5.E0);
#457=ORIENTED_EDGE('',*,*,#442,.T.);
#459=ORIENTED_EDGE('',*,*,#458,.F.);
#461=ORIENTED_EDGE('',*,*,#460,.F.);
#463=ORIENTED_EDGE('',*,*,#462,.F.);
#464=ORIENTED_EDGE('',*,*,#252,.T.);
#466=ORIENTED_EDGE('',*,*,#465,.T.);
#468=ORIENTED_EDGE('',*,*,#467,.T.);
#470=ORIENTED_EDGE('',*,*,#469,.T.);
#471=EDGE_LOOP('',(#457,#459,#461,#463,#464,#466,#468,#470));
#472=FACE_OUTER_BOUND('',#471,.F.);
#474=CARTESIAN_POINT('',(0.E0,0.E0,0.E0));
#475=DIRECTION('',(0.E0,1.E0,0.E0));
#476=DIRECTION('',(1.E0,0.E0,0.E0));
#477=AXIS2_PLACEMENT_3D('',#474,#475,#476);
#478=CYLINDRICAL_SURFACE('',#477,5.E0);
#480=ORIENTED_EDGE('',*,*,#479,.T.);
#481=ORIENTED_EDGE('',*,*,#469,.F.);
#482=ORIENTED_EDGE('',*,*,#467,.F.);
#483=ORIENTED_EDGE('',*,*,#465,.F.);
#484=ORIENTED_EDGE('',*,*,#254,.T.);
#485=ORIENTED_EDGE('',*,*,#462,.T.);
#486=ORIENTED_EDGE('',*,*,#460,.T.);
#487=ORIENTED_EDGE('',*,*,#458,.T.);
#488=EDGE_LOOP('',(#480,#481,#482,#483,#484,#485,#486,#487));
#489=FACE_OUTER_BOUND('',#488,.F.);
#491=CARTESIAN_POINT('',(0.E0,-1.7E1,0.E0));
#492=DIRECTION('',(0.E0,-1.E0,0.E0));
#493=DIRECTION('',(0.E0,0.E0,-1.E0));
#494=AXIS2_PLACEMENT_3D('',#491,#492,#493);
#495=CONICAL_SURFACE('',#494,7.325E0,2.291510628726E1);
#496=ORIENTED_EDGE('',*,*,#479,.F.);
#497=ORIENTED_EDGE('',*,*,#447,.T.);
#498=ORIENTED_EDGE('',*,*,#432,.T.);
#499=ORIENTED_EDGE('',*,*,#444,.F.);
#500=EDGE_LOOP('',(#496,#497,#498,#499));
#501=FACE_OUTER_BOUND('',#500,.F.);
#503=CLOSED_SHELL('',(#258,#273,#286,#302,#317,#330,#345,#364,#379,#394,#407,
#420,#436,#451,#473,#490,#502));
#504=MANIFOLD_SOLID_BREP('',#503);
#506=DIMENSIONAL_EXPONENTS(0.E0,0.E0,0.E0,0.E0,0.E0,0.E0,0.E0);
#508=PLANE_ANGLE_MEASURE_WITH_UNIT(PLANE_ANGLE_MEASURE(1.745329251994E-2),#507);
#509=(CONVERSION_BASED_UNIT('DEGREE',#508)NAMED_UNIT(*)PLANE_ANGLE_UNIT());
#511=UNCERTAINTY_MEASURE_WITH_UNIT(LENGTH_MEASURE(3.873899761224E-3),#505,
'closure',
'Maximum model space distance between geometric entities at asserted connectivities');
#514=APPLICATION_CONTEXT(
'CONFIGURATION CONTROLLED 3D DESIGNS OF MECHANICAL PARTS AND ASSEMBLIES');
#515=APPLICATION_PROTOCOL_DEFINITION('international standard',
'config_control_design',1994,#514);
#516=DESIGN_CONTEXT('',#514,'design');
#517=MECHANICAL_CONTEXT('',#514,'mechanical');
#518=PRODUCT('HORN','HORN','NOT SPECIFIED',(#517));
#519=PRODUCT_DEFINITION_FORMATION_WITH_SPECIFIED_SOURCE('1','LAST_VERSION',#518,
.MADE.);
#523=PRODUCT_CATEGORY('part','');
#524=PRODUCT_RELATED_PRODUCT_CATEGORY('detail','',(#518));
#525=PRODUCT_CATEGORY_RELATIONSHIP('','',#523,#524);
#526=SECURITY_CLASSIFICATION_LEVEL('unclassified');
#527=SECURITY_CLASSIFICATION('','',#526);
#528=CC_DESIGN_SECURITY_CLASSIFICATION(#527,(#519));
#529=APPROVAL_STATUS('approved');
#530=APPROVAL(#529,'');
#531=CC_DESIGN_APPROVAL(#530,(#527,#519,#520));
#532=CALENDAR_DATE(120,12,9);
#533=COORDINATED_UNIVERSAL_TIME_OFFSET(8,0,.AHEAD.);
#534=LOCAL_TIME(10,16,2.8E1,#533);
#535=DATE_AND_TIME(#532,#534);
#536=APPROVAL_DATE_TIME(#535,#530);
#537=DATE_TIME_ROLE('creation_date');
#538=CC_DESIGN_DATE_AND_TIME_ASSIGNMENT(#535,#537,(#520));
#539=DATE_TIME_ROLE('classification_date');
#540=CC_DESIGN_DATE_AND_TIME_ASSIGNMENT(#535,#539,(#527));
#541=PERSON('UNSPECIFIED','UNSPECIFIED',$,$,$,$);
#542=ORGANIZATION('UNSPECIFIED','UNSPECIFIED','UNSPECIFIED');
#543=PERSON_AND_ORGANIZATION(#541,#542);
#544=APPROVAL_ROLE('approver');
#545=APPROVAL_PERSON_ORGANIZATION(#543,#530,#544);
#546=PERSON_AND_ORGANIZATION_ROLE('creator');
#547=CC_DESIGN_PERSON_AND_ORGANIZATION_ASSIGNMENT(#543,#546,(#519,#520));
#548=PERSON_AND_ORGANIZATION_ROLE('design_supplier');
#549=CC_DESIGN_PERSON_AND_ORGANIZATION_ASSIGNMENT(#543,#548,(#519));
#550=PERSON_AND_ORGANIZATION_ROLE('classification_officer');
#551=CC_DESIGN_PERSON_AND_ORGANIZATION_ASSIGNMENT(#543,#550,(#527));
#552=PERSON_AND_ORGANIZATION_ROLE('design_owner');
#553=CC_DESIGN_PERSON_AND_ORGANIZATION_ASSIGNMENT(#543,#552,(#518));
#5=CIRCLE('',#4,1.E1);
#10=CIRCLE('',#9,1.E1);
#15=CIRCLE('',#14,5.E0);
#20=CIRCLE('',#19,5.E0);
#33=CIRCLE('',#32,1.E1);
#38=CIRCLE('',#37,1.E1);
#43=CIRCLE('',#42,7.5E0);
#48=CIRCLE('',#47,7.5E0);
#53=CIRCLE('',#52,1.E0);
#58=CIRCLE('',#57,1.E0);
#63=CIRCLE('',#62,6.5E0);
#72=CIRCLE('',#71,6.578917220712E0);
#77=CIRCLE('',#76,6.5E0);
#82=CIRCLE('',#81,1.E0);
#91=CIRCLE('',#90,6.578917220712E0);
#100=CIRCLE('',#99,6.578917220712E0);
#105=CIRCLE('',#104,1.E0);
#110=CIRCLE('',#109,6.5E0);
#115=CIRCLE('',#114,6.5E0);
#120=CIRCLE('',#119,6.5E0);
#129=CIRCLE('',#128,1.115E1);
#134=CIRCLE('',#133,1.115E1);
#139=CIRCLE('',#138,9.65E0);
#144=CIRCLE('',#143,9.65E0);
#153=CIRCLE('',#152,5.E0);
#158=CIRCLE('',#157,5.E0);
#171=CIRCLE('',#170,5.E0);
#176=CIRCLE('',#175,5.E0);
#246=EDGE_CURVE('',#191,#192,#5,.T.);
#248=EDGE_CURVE('',#192,#191,#10,.T.);
#252=EDGE_CURVE('',#195,#196,#15,.T.);
#254=EDGE_CURVE('',#196,#195,#20,.T.);
#258=ADVANCED_FACE('',(#251,#257),#245,.T.);
#265=EDGE_CURVE('',#192,#200,#28,.T.);
#267=EDGE_CURVE('',#199,#200,#33,.T.);
#269=EDGE_CURVE('',#191,#199,#24,.T.);
#273=ADVANCED_FACE('',(#272),#263,.T.);
#281=EDGE_CURVE('',#200,#199,#38,.T.);
#286=ADVANCED_FACE('',(#285),#278,.T.);
#296=EDGE_CURVE('',#223,#224,#43,.T.);
#298=EDGE_CURVE('',#224,#223,#48,.T.);
#302=ADVANCED_FACE('',(#295,#301),#291,.F.);
#309=EDGE_CURVE('',#223,#227,#53,.T.);
#311=EDGE_CURVE('',#227,#228,#120,.T.);
#313=EDGE_CURVE('',#224,#228,#58,.T.);
#317=ADVANCED_FACE('',(#316),#307,.F.);
#325=EDGE_CURVE('',#228,#227,#63,.T.);
#330=ADVANCED_FACE('',(#329),#322,.F.);
#336=EDGE_CURVE('',#231,#234,#77,.T.);
#338=EDGE_CURVE('',#227,#231,#124,.T.);
#341=EDGE_CURVE('',#228,#234,#67,.T.);
#345=ADVANCED_FACE('',(#344),#335,.T.);
#351=EDGE_CURVE('',#240,#237,#72,.T.);
#353=EDGE_CURVE('',#232,#237,#105,.T.);
#355=EDGE_CURVE('',#231,#232,#110,.T.);
#358=EDGE_CURVE('',#234,#238,#82,.T.);
#360=EDGE_CURVE('',#238,#240,#100,.T.);
#364=ADVANCED_FACE('',(#363),#350,.F.);
#371=EDGE_CURVE('',#240,#211,#86,.T.);
#373=EDGE_CURVE('',#211,#212,#129,.T.);
#375=EDGE_CURVE('',#237,#212,#95,.T.);
#379=ADVANCED_FACE('',(#378),#369,.T.);
#385=EDGE_CURVE('',#237,#238,#91,.T.);
#388=EDGE_CURVE('',#212,#211,#134,.T.);
#394=ADVANCED_FACE('',(#393),#384,.T.);
#400=EDGE_CURVE('',#232,#234,#115,.T.);
#407=ADVANCED_FACE('',(#406),#399,.F.);
#420=ADVANCED_FACE('',(#419),#412,.T.);
#430=EDGE_CURVE('',#215,#216,#139,.T.);
#432=EDGE_CURVE('',#216,#215,#144,.T.);
#436=ADVANCED_FACE('',(#429,#435),#425,.T.);
#442=EDGE_CURVE('',#219,#220,#153,.T.);
#444=EDGE_CURVE('',#219,#215,#148,.T.);
#447=EDGE_CURVE('',#220,#216,#188,.T.);
#451=ADVANCED_FACE('',(#450),#441,.F.);
#458=EDGE_CURVE('',#208,#220,#184,.T.);
#460=EDGE_CURVE('',#207,#208,#158,.T.);
#462=EDGE_CURVE('',#195,#207,#162,.T.);
#465=EDGE_CURVE('',#196,#203,#180,.T.);
#467=EDGE_CURVE('',#203,#204,#176,.T.);
#469=EDGE_CURVE('',#204,#219,#166,.T.);
#473=ADVANCED_FACE('',(#472),#456,.F.);
#479=EDGE_CURVE('',#220,#219,#171,.T.);
#490=ADVANCED_FACE('',(#489),#478,.F.);
#502=ADVANCED_FACE('',(#501),#495,.F.);
#505=(LENGTH_UNIT()NAMED_UNIT(*)SI_UNIT(.MILLI.,.METRE.));
#507=(NAMED_UNIT(*)PLANE_ANGLE_UNIT()SI_UNIT($,.RADIAN.));
#510=(NAMED_UNIT(*)SI_UNIT($,.STERADIAN.)SOLID_ANGLE_UNIT());
#512=(GEOMETRIC_REPRESENTATION_CONTEXT(3)GLOBAL_UNCERTAINTY_ASSIGNED_CONTEXT((
#511))GLOBAL_UNIT_ASSIGNED_CONTEXT((#505,#509,#510))REPRESENTATION_CONTEXT
('ID1','3'));
#513=ADVANCED_BREP_SHAPE_REPRESENTATION('',(#504),#512);
#520=PRODUCT_DEFINITION('design','',#519,#516);
#521=PRODUCT_DEFINITION_SHAPE('','SHAPE FOR HORN.',#520);
#522=SHAPE_DEFINITION_REPRESENTATION(#521,#513);
ENDSEC;
END-ISO-10303-21;
